人気ブログランキング |

2008年 04月 16日 ( 2 )

入学当時に戻ったような気分。

ついさっきまでガスの止められてる男が家に髪染めるために風呂を借りに来てました。


いやぁ、若返ったね、彼wwww
爆笑したけどもwwwwwww

久しぶりに咳出るほど笑ったわw
テラオレンジwwww其の髪でこれから夜勤ですかwww


草生やしすぎた。


本当は今日仙台に帰るはずだったんだけど、思いのほか研究室の片付けが長引いて
終電を逃してしまいました。
明日始発で帰ろう。
ごめんねワスレと戦場の狼。

my first guitar 第二回
by down-to-mexico | 2008-04-16 23:31

とりあえずメモ

-------------------------------------------------------------------|
-------------------------------------------------------------------|
-------------------------------------------------------------------|
-----------7-5----------------------------------------------------|
-5-5-8-5------8---------5-8-7-5---------5-8---------------------|
-------------------8-5-8------------8-6-8------4-3-1-5-7-8----|

--------------------------------------------------------------------|
--------------------------------------------------------------------|
--------------------------------------------------------------------|
---------5-7-------------------------------------------------------|
-5-7-8-------------------------------------------------------------|
---------------------------------------------------------------------|
by down-to-mexico | 2008-04-16 14:23